MY OWN GRAVE - NECROLOGY

Tuning: D G C F A D
Tempo: 230 bpm
Guitar I - Stefan
Guitar II - Anders

Structure:
Riff 1 x 4
Riff 2 x 3
Riff 3 x 1
Chorus x 2
Riff 4 x 1
Riff 5 x 1
Riff 2 x 2 (solo)
Riff 3 x 1
Chorus x 2
Riff 6 x 1
Riff 7 x 2


RIFF 1  - Gtr I
|------------------------------------------------------------------------|
|------------------------------------------------------------------------|
|------------------------------------------------------------------------|
|------------------------------------------------------------------------|
|-7-7-7-7---------7-7-7-7---------7-7-7-7-10-10-10-10-7-7-7-7-6-6-6-6----|
|---------0-0-0-0---------0-0-0-0----------------------------------------|


|----------------------------------------------------------------------------|
|----------------------------------------------------------------------------|
|----------------------------------------------------------------------------|
|-------------------------9-9-9-9---------------------9-9-9-9-10-10-10-10----|
|-7-7-7-7---------7-7-7-7---------10-10-10-10-7-7-7-7------------------------|
|---------0-0-0-0------------------------------------------------------------|


|------------------------------------------------------------------------|
|------------------------------------------------------------------------|
|------------------------------------------------------------------------|
|------------------------------------------------------------------------|
|-7-7-7-7---------7-7-7-7---------7-7-7-7-10-10-10-10-7-7-7-7-6-6-6-6----|
|---------0-0-0-0---------0-0-0-0----------------------------------------|


|----------------------------------------------------------------------------|
|----------------------------------------------------------------------------|
|----------------------------------------------------------------------------|
|----------------------------------------------------------------------------|
|-7-7-7-7---------7-7-7-7-10-10-10-10-7-7-7-7-6-6-6-6-10-10-10-10------------|
|---------0-0-0-0-------------------------------------------------7-7-7-7----|

RIFF 2  - Gtr I
|---------------------------------------------------------------------------------|
|---------------------------------------------------------------------------------|
|---------------------------------------------------------------------------------|
|---------------------------------------------------------------------------------|
|---5-4---5-4-------5-4---5-4-------5-4---5-4-------5-4---5-4-----9-10-9-(9)-8----|
|-0-3-2-0-3-2-0-0-0-3-2-0-3-2-0-0-0-3-2-0-3-2-0-0-0-3-2-0-3-2-0-0-7--8-7-(7)-6----|

|-------------------------------------------------------------------|
|-------------------------------------------------------------------|
|-------------------------------------------------------------------|
|-------------------------------------------------------------------|
|--5-5-5-5-5-5-6-6-5-5-5-5-5-5-5-5-5-5-5-5-6-6-5-5-4-4-4-4-4-4-4-4--|
|-------------------------------------------------------------------|

RIFF 3  - Gtr I
|------------------------------------------------------------|
|------------------------------------------------------------|
|------------------------------------------------------------|
|-----------------8-8-8-8-----------------8-8-8-8------------|
|---------7-7-7-7-----------------7-7-7-7-----------7--------|
|-5-5-5-5-----------------5-5-5-5-----------------6---8-6----|


|----------------------------------------------------------|
|----------------------------------------------------------|
|----------------------------------------------------------|
|-----------------8-8-8-8-----------------8-8-8-8----------|
|---------7-7-7-7-----------------7-7-7-7---------7-8-5----|
|-5-5-5-5-----------------5-5-5-5-----------------5-6-3----|


|------------------------------------------------------------|
|------------------------------------------------------------|
|------------------------------------------------------------|
|-----------------8-8-8-8-----------------8-8-8-8------------|
|---------7-7-7-7-----------------7-7-7-7-----------7--------|
|-5-5-5-5-----------------5-5-5-5-----------------6---8-6----|


|----------------------------------------------------------|
|----------------------------------------------------------|
|----------------------------------------------------------|
|-----------------8-8-8-8-----------------8-8-8-8----------|
|---------7-7-7-7-----------------7-7-7-7---------7--8-----|
|-5-5-5-5-----------------5-5-5-5-----------------5--6-----|


|---------------------------------------------------------------------|
|---------------------------------------------------------------------|
|---------------------------------------------------------------------|
|-----------------10-10-10-10-----------------10-10-10-10-------------|
|---------9-9-9-9---------------------9-9-9-9---------------9---------|
|-7-7-7-7---------------------7-7-7-7---------------------8---10-8----|


|-------------------------------------------------------------------|
|-------------------------------------------------------------------|
|-------------------------------------------------------------------|
|-----------------10-10-10-10-----------------10-10-10-10-----------|
|---------9-9-9-9---------------------9-9-9-9-------------9-10-8----|
|-7-7-7-7---------------------7-7-7-7---------------------7--8-6----|


|------------------------------------------------------------|
|------------------------------------------------------------|
|------------------------------------------------------------|
|-----------------8-8-8-8-----------------8-8-8-8------------|
|---------7-7-7-7-----------------7-7-7-7-----------7--------|
|-5-5-5-5-----------------5-5-5-5-----------------6---8-6----|


|-------------------------------------------------------------------------|
|-------------------------------------------------------------------------|
|-------------------------------------------------------------------------|
|-----------------8-8-8-8-----------------8-8-8-8-------------------------|
|---------7-7-7-7-----------------7-7-7-7---------7-8-5-3-3--3-3----------|
|-5-5-5-5-----------------5-5-5-5-----------------5-6-3-1-1--1-1--1-1-1-1-|


CHORUS  - Gtr I
|----------------------------------------------------------------------------|
|----------------------------------------------------------------------------|
|----------------------------------------------------------------------------|
|----------------------------------------------------------------------------|
|----------------------------------------------------------------------------|
|-0-0-0-0-0-0-0-0-3-3-3-3-7-7-7-7-0-0-0-0-0-0-0-0-3-3-3-3-6-6-6-6-6-6-6-6----|


|------------------------------------------------------------------|
|------------------------------------------------------------------|
|------------------------------------------------------------------|
|------------------------------------------------------------------|
|--------------------5h8p5---3-------------------------------------|
|-3-3-3-3-5-5-5-5-3--------0-1--0-0-0-0-0-0-0-0-3-3-3-3-7-7-7-7----|


|-----------------------------------------------------------------------|
|-----------------------------------------------------------------------|
|-----------------------------------------------------------------------|
|------------------------------------------------------------7----------|
|------------------------------------------------------------5-3-3-3----|
|-0-0-0-0-0-0-0-0-3-3-3-3-6-6-6-6-6-6-6-6-3-3-3-3-5-5-5-5-3--5-1-1-1----|


RIFF 4  - Gtr I
|--------------------------------------------------|
|--------------------------------------------------|
|--------------------------------------------------|
|--------------------------------------------------|
|-2--------(2)--------(2)--------(2)----(2)--------|
|-0--------(0)--------(0)--------(0)----(0)--0-0---|

|------------------------------------------------------------|
|------------------------------------------------------------|
|------------------------------------------------------------|
|------------------------------------------------------------|
|------------------------------------------------------------|
|-0-0-0-0-0--0-0-0-0-0-0-0--0-0-0-0-0-0-0--0-0-0-0-0-0-0-----|


RIFF 5  - Gtr I
|------------------------------------------------------------|
|------------------------------------------------------------|
|------------------------------------------------------------|
|------------------------------------------------------------|
|---------------------5-----4---------------------5-----4----|
|-0-3-2-0-3-2-0-3-0-0---0-0---0-3-2-0-3-2-0-3-0-0---0-0------|


|------------------------------------------------------------|
|------------------------------------------------------------|
|------------------------------------------------------------|
|------------------------------------------------------------|
|---------------------5-----4---------------------5-----4----|
|-0-3-2-0-3-2-0-3-0-0---0-0---0-3-2-0-3-2-0-3-0-0---0-0------|


|------------------------------------------------------------|
|------------------------------------------------------------|
|------------------------------------------------------------|
|------------------------------------------------------------|
|---------------------9-----8---------------------9-----8----|
|-0-6-5-0-6-5-0-6-0-0---0-0---0-6-5-0-6-5-0-6-0-0---0-0------|


|-------------------------------------------------------------------------|
|-------------------------------------------------------------------------|
|-------------------------------------------------------------------------|
|-------------------------------------------------------------------------|
|---------------------9-----8---------------------------------------------|
|-0-6-5-0-6-5-0-6-0-0---0-0---0-6-5-0-6-5-0-6-0--7-7-7-7-7-7-7-7-6-6-6-6--|


RIFF 6  - Gtr I
|-------------------------10-8-7-5-7-5--------|
|--------8-----8-10-----8----------------7----|
|------9-----9--------9----------------8------|
|----9----------------------------------------|
|--2-------2--------2-------------------------|
|--0-------0--------0-------------------------|

RIFF 7  - Gtr I
|--------------------------------------------|
|--------------------------------------------|
|--------------------------------------------|
|-----------------------------------7--------|
|-2--------2----5----2--------------5----2---|
|-0--------0----3----0--------0--0--5----0---|


|-------------------------------|
|-------------------------------|
|-------------------------------|
|-----------5----5----5---------|
|-5----5----3----2----2---------|
|-2----3-------------------3----|


|--------------------------------------------|
|--------------------------------------------|
|--------------------------------------------|
|-----------------------------------7--------|
|-2--------2----5----2--------------5----2---|
|-0--------0----3----0--------0--0--5----0---|


|-----------------------------------------------|
|-----------------------------------------------|
|-----------------------------------------------|
|-----------5----5----5-------------------------|
|-5----5----3----2----2----------2--------(2)---|
|-2----3-------------------3--3--0--------(0)---|


==============================================================================================
RIFF 1 - Gtr II |-----------------------------------------------------------------------| |-----------------------------------------------------------------------| |-----------------------------------------------------------------------| |-----------------------------------------------------------------------| |--7-7-7-7---------7-7-7-7---------7-7-7-7-10-10-10-10-7-7-7-7-6-6-6-6--| |----------0-0-0-0---------0-0-0-0--------------------------------------| |----------------------------------------------------------------------------| |----------------------------------------------------------------------------| |-------------------------9-9-9-9--------------------------------------------| |---------------------------------9-9-9-9------------------------------------| |-7-7-7-7---------7-7-7-7-------------------------10-10-10-10-12-12-12-12----| |---------0-0-0-0-------------------------8-8-8-8----------------------------| RIFF 2 - Gtr II |---------------------------------------------------------------------------------| |---------------------------------------------------------------------------------| |---------------------------------------------------------------------------------| |---------------------------------------------------------------------------------| |---5-4---5-4-------5-4---5-4-------5-4---5-4-------5-4---5-4-----9-10-9-(9)-8----| |-0-3-2-0-3-2-0-0-0-3-2-0-3-2-0-0-0-3-2-0-3-2-0-0-0-3-2-0-3-2-0-0-7--8-7-(7)-6----| |-------------------------------------------------------------------| |-------------------------------------------------------------------| |-------------------------------------------------------------------| |-------------------------------------------------------------------| |-------------------------------------------------------------------| |--7-7-7-7-7-7-8-8-7-7-7-7-7-7-7-7-7-7-7-7-8-8-7-7-6-6-6-6-6-6-6-6--| RIFF 3 - Gtr II |------------------------------------------------------------| |------------------------------------------------------------| |------------------------------------------------------------| |-----------------8-8-8-8-----------------8-8-8-8------------| |---------7-7-7-7-----------------7-7-7-7-----------7--------| |-5-5-5-5-----------------5-5-5-5-----------------6---8-6----| |----------------------------------------------------------| |----------------------------------------------------------| |----------------------------------------------------------| |-----------------8-8-8-8-----------------8-8-8-8----------| |---------7-7-7-7-----------------7-7-7-7---------7-8-5----| |-5-5-5-5-----------------5-5-5-5-----------------5-6-3----| |------------------------------------------------------------| |------------------------------------------------------------| |------------------------------------------------------------| |-----------------8-8-8-8-----------------8-8-8-8------------| |---------7-7-7-7-----------------7-7-7-7-----------7--------| |-5-5-5-5-----------------5-5-5-5-----------------6---8-6----| |----------------------------------------------------------| |----------------------------------------------------------| |----------------------------------------------------------| |-----------------8-8-8-8-----------------8-8-8-8----------| |---------7-7-7-7-----------------7-7-7-7---------7--8-----| |-5-5-5-5-----------------5-5-5-5-----------------5--6-----| |---------------------------------------------------------------------| |---------------------------------------------------------------------| |---------------------------------------------------------------------| |-----------------10-10-10-10-----------------10-10-10-10-------------| |---------9-9-9-9---------------------9-9-9-9---------------9---------| |-7-7-7-7---------------------7-7-7-7---------------------8---10-8----| |-------------------------------------------------------------------| |-------------------------------------------------------------------| |-------------------------------------------------------------------| |-----------------10-10-10-10-----------------10-10-10-10-----------| |---------9-9-9-9---------------------9-9-9-9-------------9-10-8----| |-7-7-7-7---------------------7-7-7-7---------------------7--8-6----| |------------------------------------------------------------| |------------------------------------------------------------| |------------------------------------------------------------| |-----------------8-8-8-8-----------------8-8-8-8------------| |---------7-7-7-7-----------------7-7-7-7-----------7--------| |-5-5-5-5-----------------5-5-5-5-----------------6---8-6----| |-------------------------------------------------------------------------| |-------------------------------------------------------------------------| |-------------------------------------------------------------------------| |-----------------8-8-8-8-----------------8-8-8-8-------------------------| |---------7-7-7-7-----------------7-7-7-7---------7-8-5-3-3--3-3----------| |-5-5-5-5-----------------5-5-5-5-----------------5-6-3-1-1--1-1--1-1-1-1-| CHORUS - Gtr II |----------------------------------------------------------------------------| |----------------------------------------------------------------------------| |----------------------------------------------------------------------------| |----------------------------------------------------------------------------| |----------------------------------------------------------------------------| |---0-0-0-0-0-0-0-0-3-3-3-3-7-7-7-7-0-0-0-0-0-0-0-0-3-3-3-3-6-6-6-6-6-6-6-6--| |------------------------------------------------------------------| |------------------------------------------------------------------| |------------------------------------------------------------------| |------------------------------------------------------------------| |--------------------2h5p2---3-------------------------------------| |-3-3-3-3-5-5-5-5-3--------0-1--0-0-0-0-0-0-0-0-3-3-3-3-7-7-7-7----| |-----------------------------------------------------------------------| |-----------------------------------------------------------------------| |-----------------------------------------------------------------------| |------------------------------------------------------------7----------| |------------------------------------------------------------5-3-3-3----| |-0-0-0-0-0-0-0-0-3-3-3-3-6-6-6-6-6-6-6-6-3-3-3-3-5-5-5-5-3--5-1-1-1----| RIFF 4 - Gtr II |------------------------------------------------------------| |------------------------------------------------------------| |------------------------------------------------------------| |------------------------------------------------------------| |------------------------------------------------------------| |-0-0-0-0-0--0-0-0-0-0-0-0--0-0-0-0-0-0-0--0-0-0-0-0-0-0-----| |------------------------------------------------------------| |------------------------------------------------------------| |------------------------------------------------------------| |------------------------------------------------------------| |------------------------------------------------------------| |-0-0-0-0-0--0-0-0-0-0-0-0--0-0-0-0-0-0-0--0-0-0-0-0-0-0-----| RIFF 5 - Gtr II |------------------------------------------------------------| |------------------------------------------------------------| |------------------------------------------------------------| |------------------------------------------------------------| |---------------------5-----4---------------------5-----4----| |-0-3-2-0-3-2-0-3-0-0---0-0---0-3-2-0-3-2-0-3-0-0---0-0------| |------------------------------------------------------------| |------------------------------------------------------------| |------------------------------------------------------------| |------------------------------------------------------------| |---------------------5-----4---------------------5-----4----| |-0-3-2-0-3-2-0-3-0-0---0-0---0-3-2-0-3-2-0-3-0-0---0-0------| |------------------------------------------------------------| |------------------------------------------------------------| |------------------------------------------------------------| |------------------------------------------------------------| |---------------------5-----4---------------------5-----4----| |-0-3-2-0-3-2-0-3-0-0---0-0---0-3-2-0-3-2-0-3-0-0---0-0------| |-------------------------------------------------------------------------| |-------------------------------------------------------------------------| |-------------------------------------------------------------------------| |-------------------------------------------------------------------------| |---------------------5-----4--------------------5-5-5-5-5-5-5-5-4-4-4-4--| |-0-3-2-0-3-2-0-3-0-0---0-0---0-3-2-0-3-2-0-3-0---------------------------| RIFF 6 - Gtr II |--------------------------------------------| |------------------------8-10-8-7-8-7--------| |--------9-----9-7-----9----------------8----| |------9-----9-------9----------------9------| |--2-7-----2-------2-------------------------| |--0-------0-------0-------------------------| RIFF 7 - Gtr II |----------------------------------------------------------------------| |----------------------------------------------------------------------| |--------------------------9-9-9-9------------------9-9-9-9-7-7-7-7----| |------------------9-9-9-9------------------9-9-9-9--------------------| |---------7-7-7-7-------------------7-7-7-7----------------------------| |-0-0-0-0--------------------------------------------------------------| |-------------------------------------------------------------------------------| |---------------------------8-8-8-8-10-10-10-10-8-8-8-8-7-7-8-8-7-7-------------| |------------------9-9-9-9-----------------------------------------------8-8----| |---------9-9-9-9----------------------------------------------------9-9--------| |-7-7-7-7-----------------------------------------------------------------------| |-------------------------------------------------------------------------------|